Ad Unit (Iklan) BIG

Superman Is Dead - Beyond This Honesty



Berikut chord gitar dan lirik lagu Superman Is Dead - Beyond This Honesty, Chord Ukulele Senar 4 dan Chord Ukulele Senar 3 atau Kentrung dengan kunci dasar yang mudah dimainkan bagi pemula, kamu juga dapat menggunakan chord yang versi Capo dengan menekan tombol Capo yang telah disediakan. Selamat bermain...

A5 E5
When I found the love it’s seem so hard,
F#5 D5
To make it close here in my heart
A5 E5
Break the single day out of my time,
F#5 D5
But then the good things never come
E5
Oh feel my heart,
It’s gonna blow by one two three
F#5 E5 D5
But I got nothing much to lose
E5
Send back the dime,
Won’t ease the pain ‘cos I got mine
F#5 E5 D5
Yea I got my own misery

E5
So I’ll say what I say,
E5 E5
And do what I do, and I will be true,
E5
Beyond this honesty

A5 E5
Oh, I thought the angel will be you
F#5 D5
Oh, now you spit fire on my face
A5 E5
Oh, you start to talk like you’re god
F#5 D5
Oh, you put the stupid music on
E5
(oh what the fuck !)

A5 E5
All the joke that used to make me laugh,
F#5 D5
Now it’s just dumb you said it too much
A5 E5
All the beauty came out from your face,
F#5 D5
It doesn’t scrath my eyes again

E5
Hi what’s your name,
Can I kiss your lips, baby I love you
F#5 E5 D5
Wish I didn’t speak those words to you
E5
Now I realize that you try so hard
Always put me down,
F#5 E5 D5
Hey baby this man had enough

E5
So just say what you say,
E5 E5
And do what you do, It won’t be for long
E5
Beyond this honesty

A5 E5
Oh, she bring me down about my style
F#5 D5
Oh, why don’t you burn like a barbie doll
A5 E5
Oh, she likes the macho kind a guy
F#5 D5
Oh, no wonder she act like one too
E5
(oh what the fuck !)

e|----------------------------------------------------------------------------------|
B|------------------------------------------10-10-10-9-9-9-7-7-7-------7-7-7--------|
G|----6-9-/11-9-6-9----------------------------------------------9-9-9-------9-9-9--|
D|--7---------------7----7-9-/11-9-9-7-9-7------------------------------------------|
A|---------------------7------------------------------------------------------------|
E|----------------------------------------------------------------------------------|

e|------------------------------------12--|
B|-----------10-12-/14-12-12-10-12-10-----|
G|--6-9----9------------------------------|
D|------7---------------------------------|
A|----------------------------------------|
E|----------------------------------------|

B5 D5
But at the end ..............


Itulah kunci gitar Superman Is Dead - Beyond This Honesty dari nada dasar Ab, A, A#, Bb, B, C, Db, D, D#, Eb, E, F, F#, Gb, G atau G# atau sesuai nada yang kamu inginkan.

Mudah-mudahan dengan memainkan lagu Superman Is Dead - Beyond This Honesty ini dapat menghiburmu, dan jangan lupa mainkan juga chord lagu lainnya yang dinyanyikan oleh .

Mainkan Juga

Subscribe Our Newsletter
CAPO DOWN SCROLL SPEED CAPO UP