Ad Unit (Iklan) BIG

Superman Is Dead - Broken Song



Berikut chord gitar dan lirik lagu Superman Is Dead - Broken Song, Chord Ukulele Senar 4 dan Chord Ukulele Senar 3 atau Kentrung dengan kunci dasar yang mudah dimainkan bagi pemula, kamu juga dapat menggunakan chord yang versi Capo dengan menekan tombol Capo yang telah disediakan. Selamat bermain...

A5 E5
I look up the sky it’s nothing there could make me smile
D5 A5
And the moon is dark it’s time to let you go
A5 E5
The scratches in my heart I know it’s real but feel so fake
D5
I could never…

A5 E5
Cos when I look back so many things I should regret
D5 A5
My insecurity won’t dry to pull you down
A5 E5
All this things surrounding me is never compromise
D5 A5
Bring the devil get outta my side

E5 A5
This broken heart and broken life
E5 D5 A5
I’ve made it all no turning back
E5 A5
Now should I stay here with no lights
E5 D5 A5
Or should I go for one last try

A5 E5
The brighter side of me is grey so hard to make it white
D5 A5
And the reasons just completely out of sight
A5 E5
I’ll come back and try when I know I’m a better man
D5 A5
Then again that will never come true

E5 A5
I wonder why we say good bye
E5 D5 A5
Wonder why I fucked up everything
E5 A5
And just today I’ve found it why
E5 D5 A5
Like they say some was born to lose



e|--3/9-9-9-9-9-9-9-9-9--7-9-9-7-7-5-7--9--10--9-7-9--10--10-9-9-7-9--|
B|--3/9---------------------------------------------------------------|
G|--------------------------------------------------------------------|
D|--------------------------------------------------------------------|
A|--------------------------------------------------------------------|
E|--------------------------------------------------------------------|

e|----------------------------------------------------------------------------|
B|----------------------------------------------------------------------------|
G|------2---2---2h4-4/6--4h6-4h6-6-4-4---4h6-4--6-4-4\2---2-4-4/6-4\2-2-4-2~--|
D|--2h4---4---4------------------------7----------------4---------------------|
A|----------------------------------------------------------------------------|
E|----------------------------------------------------------------------------|


Itulah kunci gitar Superman Is Dead - Broken Song dari nada dasar Ab, A, A#, Bb, B, C, Db, D, D#, Eb, E, F, F#, Gb, G atau G# atau sesuai nada yang kamu inginkan.

Mudah-mudahan dengan memainkan lagu Superman Is Dead - Broken Song ini dapat menghiburmu, dan jangan lupa mainkan juga chord lagu lainnya yang dinyanyikan oleh .

Mainkan Juga

Subscribe Our Newsletter
CAPO DOWN SCROLL SPEED CAPO UP