Ad Unit (Iklan) BIG

Superman Is Dead - Forever Love Insane



Berikut chord gitar dan lirik lagu Superman Is Dead - Forever Love Insane, Chord Ukulele Senar 4 dan Chord Ukulele Senar 3 atau Kentrung dengan kunci dasar yang mudah dimainkan bagi pemula, kamu juga dapat menggunakan chord yang versi Capo dengan menekan tombol Capo yang telah disediakan. Selamat bermain...

INTRO: B5 G5 B5 D5 B5 G5 A5

Verse 1
B5 G5 B5 D5
I bleed you bleed with me, I cried for a thousand rose
B5 G5 A5
We walked the diamond dream, let me hold you tight!
B5 G5 B5 D5
Dead flowers in the dark, keep searching for the light
B5 G5
sometime it stays in black
A5
I will not move back, don't wanna move back no!

D5 C#5 B5 G5 F#5 G5 A5

Verse 2
B5 G5 B5 D5
My scars are made of love, my heart is not enough
B5 G5 A5
Life's never been so short, won't you hold me tight!
B5 G5 B5 D5
Slept on a bed of nails, woke up in heaven's land
B5 G5 A5
You gave me all the strength, it's so beautiful, you're my beautiful one!

Chorus
D5 A5 B5 G5 D5
I'll be the one I'll be there by your side, forever
D5 A5 B5 G5 A5 D5
I'll grab the stars for you and I, in this forever love insane
D5 A5 B5 G5 D5
We'll be alright thru the good and the bad, forever
D5 A5 B5 G5 A5
And fly with swallows till the end, here's my life for you

Solo

Same chords as Verse and Chorus


e|---------------------------------------------------------------------------------|
B|------------------------------7-5------------------7-5---5-----------------------|
G|--4---4--7-4-7-4---4-4--7-4-7-----7-4--7-4-7-4---4-----7----7---4--7-4-7-4---4-4-|
D|----7------------7-----------------------------7--------------7------------7-----|
A|---------------------------------------------------------------------------------|
E|---------------------------------------------------------------------------------|

e|-------------------------------------------------------|
B|-------7-5------------------7-5---5--5-7--7-8-7-5-8-7--|
G|-7-4-7-----7-4--7-4-7-4---4-----7----------------------|
D|------------------------7------------------------------|
A|-------------------------------------------------------|
E|-------------------------------------------------------|

e|--------7-10-7----7-----------------7-10-7-10-12-10-7-12-10-|
B|-7-10-7--------10---10-7--7h10-7-10-------------------------|
G|------------------------------------------------------------|
D|------------------------------------------------------------|
A|------------------------------------------------------------|
E|------------------------------------------------------------|

e|-10-10-10-9--7----10-7-7-----7-----------------|
B|---------------10---------10---10-7------------|
G|------------------------------------9-7--------|
D|----------------------------------------7-9----|
A|-----------------------------------------------|
E|-----------------------------------------------|

e|-----------------------------------------------------------------------|
B|-------------------------------------------------------------7---------|
G|--7---7----------7---7h9p7h9p7h9p7h9p7h9--7------7---7---------9-7-9---|
D|----9---9-7-9-9----9------------------------7-9----9---9-7-9-----------|
A|-----------------------------------------------------------------------|
E|-----------------------------------------------------------------------|

Interlude
B5 G5 B5 D5
We drank our sins away, there's nothing left to say
B5 G5 A5
And when the moon is pale, dig my grave with you!
B5 G5 B5 D5
Here we are standing still, these eyes for you to see
B5 G5 A5
This heart for you to have, it's so beautiful, you're my beautiful one!

Back to Chorus 2x


Itulah kunci gitar Superman Is Dead - Forever Love Insane dari nada dasar Ab, A, A#, Bb, B, C, Db, D, D#, Eb, E, F, F#, Gb, G atau G# atau sesuai nada yang kamu inginkan.

Mudah-mudahan dengan memainkan lagu Superman Is Dead - Forever Love Insane ini dapat menghiburmu, dan jangan lupa mainkan juga chord lagu lainnya yang dinyanyikan oleh .

Mainkan Juga

Subscribe Our Newsletter
CAPO DOWN SCROLL SPEED CAPO UP