Ad Unit (Iklan) BIG

Superman Is Dead - Memories Of Rose



Berikut chord gitar dan lirik lagu Superman Is Dead - Memories Of Rose, Chord Ukulele Senar 4 dan Chord Ukulele Senar 3 atau Kentrung dengan kunci dasar yang mudah dimainkan bagi pemula, kamu juga dapat menggunakan chord yang versi Capo dengan menekan tombol Capo yang telah disediakan. Selamat bermain...

Em
Em Bm C D

E5 B5
I think about the end of the world
E5 B5
I'm thinking about you
E5 B5
All the struggle we had and the past
C5
Blood and tears my love
D5 E5
How could I forget


E5 B5
In sorrow now since we fell apart
E5 B5
A million miles away
E5 B5
Still I put my faith on the high sky
C5
Everlasting pain
D5 E5
How could I escape


D5 G5 D5 G5
Don't go don't go away
D5 G5 B5
Stay with me in this lullabies
D5 G5 D5 G5 D5 G5
Darling it won't be long till we find
B5
our away back home again...


e|-------------------------------------------------------------|
B|-------------------------------------------------------------|
G|---------------------------2-4-2----2-2-2-2-4-5-4-2-5-4h5-4--|
D|--2-2-2-2-4-5-4-2--5-5-5-5-------5---------------------------|
A|-------------------------------------------------------------|
E|-------------------------------------------------------------|


E5 B5
I think about the evil ways I've been
E5 B5
The self destruction years
E5 B5
I disrespect myself and the world
C5
Chase by ghost of lust
D5 E5
Kill the love ones down

D5 G5 D5 G5
Don't go don't go away
D5 G5 B5
Stay with me in this lullabies
D5 G5 D5 G5 D5
Darling it won't be long till we find
B5
our away back home again...


e|--0-0-0-------------------------------------------|
B|--0-0-0-------------------------------------------|
G|--0-0-0--4-4-4--4-2------2------------------------|
D|--2-2-2-------------5-4----5-4-2--5-4-2----4-2----|
A|--2-2-2---------------------------------5------2--|
E|--0-0-0-------------------------------------------|

e|--------------------------5--8p7p5-7--|
B|-----------5---5-7-8--7-8-------------|
G|--4-4-4--4---7------------------------|
D|--4-4-4-------------------------------|
A|--2-2-2-------------------------------|
E|--------------------------------------|

e|-----------/10-8-7-----8-7-------7-----------------------------|
B|---------5---------10------10-8----10-8-7--10-8-7-8-7-8-7-8-7--|
G|--5-5-5--------------------------------------------------------|
D|--5-5-5--------------------------------------------------------|
A|--3-3-3--------------------------------------------------------|
E|---------------------------------------------------------------|


E5

G5 B5 E5
At night when the shadow falls
G5 B5 E5
Wish I'm there just right there
G5 B5 E5
Close by your side
G5 B5 E5
This lonesome dreams
C5
I'm haunted by
D5 E5
The memories of rose...


e|--3-2--------3-2--------3-2--------3-2--------------------------------------------------|
B|------5-3--------5-3--------5-3--------5-3--------3----3----3----3----3--5-3-5-3---3-5--|
G|----------4----------4----------4----------4--2-4----4----4----4----4------------4------|
D|----------------------------------------------------------------------------------------|
A|----------------------------------------------------------------------------------------|
E|----------------------------------------------------------------------------------------|

e|-----7-8-7----7-8-7----7---------7-8-7----7-8-7----7-/10-8-7-8-7----7--------------------------|
B|8-10-------10-------10------8-10-------10-------10---------------10---10--8-10-8---8----8------|
G|---------------------------------------------------------------------------------9----9---9-7-9|
D|-----------------------------------------------------------------------------------------------|
A|-----------------------------------------------------------------------------------------------|
E|-----------------------------------------------------------------------------------------------|


E5 B5
I gave up all the poison for you
E5 B5
Gave up the wildest dreams
E5 B5
And in the end I'll grow old with you
C5
Only you my love
D5 E5
Burn the fire burns...


D5 G5 D5 G5
Don't go don't go away
D5 G5 B5
Stay with me in this lullabies
D5 G5 D5 G5 D5 G5
Darling it won't be long till we find
B5
our away back home again (2X)


e|-------------------------------------------------------------------12--|
B|----------------------------------------------------------------12-----|
G|---------------------------2-4-2----2-2-2-2-4-5-4-2-5-4h5-4------------|
D|--2-2-2-2-4-5-4-2--5-5-5-5-------5-------------------------------------|
A|-----------------------------------------------------------------------|
E|-----------------------------------------------------------------------|

e|--------------------------------------------------|
B|--------------------------------------------------|
G|---------------------------2-4-2------------------|
D|--2-2-2-2-4-5-4-2--5-5-5-5-------5------------2---|
A|------------------------------------3----5----2---|
E|----------------------------------------------0---|


Itulah kunci gitar Superman Is Dead - Memories Of Rose dari nada dasar Ab, A, A#, Bb, B, C, Db, D, D#, Eb, E, F, F#, Gb, G atau G# atau sesuai nada yang kamu inginkan.

Mudah-mudahan dengan memainkan lagu Superman Is Dead - Memories Of Rose ini dapat menghiburmu, dan jangan lupa mainkan juga chord lagu lainnya yang dinyanyikan oleh .

Mainkan Juga

Subscribe Our Newsletter
CAPO DOWN SCROLL SPEED CAPO UP