Ad Unit (Iklan) BIG

Superman Is Dead - Temaram Senja



Berikut chord gitar dan lirik lagu Superman Is Dead - Temaram Senja, Chord Ukulele Senar 4 dan Chord Ukulele Senar 3 atau Kentrung dengan kunci dasar yang mudah dimainkan bagi pemula, kamu juga dapat menggunakan chord yang versi Capo dengan menekan tombol Capo yang telah disediakan. Selamat bermain...

Intro
G C D G
Em C D G
G C D G
Em C D


Verse 1

G Am
Lorong sunyi tembok putih

D G
Selimut yang terlipat rapi

G Am
Jejak langkah nan kian mendekat

D C G
Inilah saatnya

G Am
Kumenanti yang tercinta

D G
Cabut jarum dari nadiku

G Am
Semerbak mawar dia menghitam

D C G
Jatuh dan berpendam


Pre-Chorus

C G D C G
Oh... sudah maafkanlah hati ini

C G D
Sejuta mimpi yang tertunda


Chorus

G C
Kudengar malaikat bernyanyi

D G
Nyanyikan lagu tentang mimpi

E C D
Mimpi indah yang ku tinggalkan kini

G C
Sebut namaku skali saja

D G
Ku kan slalu ada di sana

F#m-Em C D
Disisiku kau kan ku jaga selama-lamanya


Verse 2

G Am
Tangan kecil bidadari

D G
Lembutnya menyentuh pipiku

G Am
Temaram senja dia menghadang

D C G
Rapuh ku menghilang


Solo Guitar

e|------------------------------------------|
B|--------5-5------5---------------------5--|
G|--5-5-7------7-7------4-4-5-7-7--5-5-7----|
D|-------------------7----------------------|
A|------------------------------------------|
E|------------------------------------------|

e|--8-7-5-7-5---5------------------------8--|
B|------------8---8-5-8--5-8-8-8-5-6-5------|
G|-------------------------------------7----|
D|------------------------------------------|
A|------------------------------------------|
E|------------------------------------------|


Pre-Chorus 2

C G D C G
Oh... tuhan maafkanlah dosa ini

C G D
Yang tak sombong lagi berdiri

Back to Chorus


Itulah kunci gitar Superman Is Dead - Temaram Senja dari nada dasar Ab, A, A#, Bb, B, C, Db, D, D#, Eb, E, F, F#, Gb, G atau G# atau sesuai nada yang kamu inginkan.

Mudah-mudahan dengan memainkan lagu Superman Is Dead - Temaram Senja ini dapat menghiburmu, dan jangan lupa mainkan juga chord lagu lainnya yang dinyanyikan oleh .

Mainkan Juga

Subscribe Our Newsletter
CAPO DOWN SCROLL SPEED CAPO UP